ISO-10303-21;
HEADER;
FILE_DESCRIPTION (( 'STEP AP203' ),
    '1' );
FILE_NAME ('Q-QZWP-R4-25.4-488-M.STEP',
    '2020-12-23T01:27:48',
    ( '' ),
    ( '' ),
    'SwSTEP 2.0',
    'SolidWorks 2020',
    '' );
FILE_SCHEMA (( 'CONFIG_CONTROL_DESIGN' ));
ENDSEC;

DATA;
#1 = APPROVAL ( #114, 'UNSPECIFIED' ) ;
#2 = AXIS2_PLACEMENT_3D ( 'NONE', #142, #5, #70 ) ;
#3 = FACE_OUTER_BOUND ( 'NONE', #148, .T. ) ;
#4 =( LENGTH_UNIT ( ) NAMED_UNIT ( * ) SI_UNIT ( .MILLI., .METRE. ) );
#5 = DIRECTION ( 'NONE',  ( 1.000000000000000000, 0.000000000000000000, 0.000000000000000000 ) ) ;
#6 = FACE_OUTER_BOUND ( 'NONE', #113, .T. ) ;
#7 = EDGE_CURVE ( 'NONE', #62, #81, #32, .T. ) ;
#8 = PERSON_AND_ORGANIZATION_ROLE ( 'classification_officer' ) ;
#9 = PRODUCT_DEFINITION_FORMATION_WITH_SPECIFIED_SOURCE ( 'ANY', '', #131, .NOT_KNOWN. ) ;
#10 = LOCAL_TIME ( 9, 27, 48.00000000000000000, #63 ) ;
#11 = VECTOR ( 'NONE', #35, 1000.000000000000000 ) ;
#12 = COORDINATED_UNIVERSAL_TIME_OFFSET ( 8, 0, .AHEAD. ) ;
#13 = SECURITY_CLASSIFICATION_LEVEL ( 'unclassified' ) ;
#14 = PRODUCT_DEFINITION_SHAPE ( 'NONE', 'NONE',  #19 ) ;
#15 = CARTESIAN_POINT ( 'NONE',  ( 3.000000000000000000, 1.836970198721029589E-15, -15.00000000000000000 ) ) ;
#16 = CYLINDRICAL_SURFACE ( 'NONE', #94, 15.00000000000000000 ) ;
#17 = LOCAL_TIME ( 9, 27, 48.00000000000000000, #120 ) ;
#18 = DIRECTION ( 'NONE',  ( -1.000000000000000000, -0.000000000000000000, -0.000000000000000000 ) ) ;
#19 = PRODUCT_DEFINITION ( 'UNKNOWN', '', #9, #67 ) ;
#20 = PLANE ( 'NONE',  #165 ) ;
#21 = DIRECTION ( 'NONE',  ( 0.000000000000000000, 0.000000000000000000, 1.000000000000000000 ) ) ;
#22 = PERSON_AND_ORGANIZATION ( #73, #69 ) ;
#23 = SECURITY_CLASSIFICATION ( '', '', #13 ) ;
#24 = APPROVAL_DATE_TIME ( #74, #41 ) ;
#25 = ORIENTED_EDGE ( 'NONE', *, *, #7, .T. ) ;
#26 = APPROVAL_DATE_TIME ( #136, #1 ) ;
#27 = PERSON_AND_ORGANIZATION ( #73, #69 ) ;
#28 = MANIFOLD_SOLID_BREP ( 'Ðý×', #125 ) ;
#29 = ORIENTED_EDGE ( 'NONE', *, *, #143, .T. ) ;
#30 = AXIS2_PLACEMENT_3D ( 'NONE', #71, #18, #155 ) ;
#31 = CC_DESIGN_PERSON_AND_ORGANIZATION_ASSIGNMENT ( #147, #50, ( #19 ) ) ;
#32 = LINE ( 'NONE', #150, #121 ) ;
#33 = DIRECTION ( 'NONE',  ( 0.000000000000000000, 0.000000000000000000, 1.000000000000000000 ) ) ;
#34 = LOCAL_TIME ( 9, 27, 48.00000000000000000, #12 ) ;
#35 = DIRECTION ( 'NONE',  ( -1.000000000000000000, -0.000000000000000000, -0.000000000000000000 ) ) ;
#36 = CARTESIAN_POINT ( 'NONE',  ( -3.000000000000000000, 0.000000000000000000, 15.00000000000000000 ) ) ;
#37 = APPROVAL_PERSON_ORGANIZATION ( #52, #1, #168 ) ;
#38 = CARTESIAN_POINT ( 'NONE',  ( -1.614212418857619014, 0.000000000000000000, 0.000000000000000000 ) ) ;
#39 = CIRCLE ( 'NONE', #160, 15.00000000000000000 ) ;
#40 = PERSON_AND_ORGANIZATION_ROLE ( 'design_owner' ) ;
#41 = APPROVAL ( #91, 'UNSPECIFIED' ) ;
#42 = APPROVAL_STATUS ( 'not_yet_approved' ) ;
#43 = VERTEX_POINT ( 'NONE', #140 ) ;
#44 = COORDINATED_UNIVERSAL_TIME_OFFSET ( 8, 0, .AHEAD. ) ;
#45 = FACE_OUTER_BOUND ( 'NONE', #167, .T. ) ;
#46 = CYLINDRICAL_SURFACE ( 'NONE', #101, 15.00000000000000000 ) ;
#47 = DIRECTION ( 'NONE',  ( -1.000000000000000000, -0.000000000000000000, -0.000000000000000000 ) ) ;
#48 = CARTESIAN_POINT ( 'NONE',  ( -1.614212418857619014, 1.836970198721029589E-15, -15.00000000000000000 ) ) ;
#49 = CALENDAR_DATE ( 2020, 23, 12 ) ;
#50 = PERSON_AND_ORGANIZATION_ROLE ( 'creator' ) ;
#51 = ORIENTED_EDGE ( 'NONE', *, *, #65, .T. ) ;
#52 = PERSON_AND_ORGANIZATION ( #73, #69 ) ;
#53 = ORIENTED_EDGE ( 'NONE', *, *, #115, .F. ) ;
#54 = VERTEX_POINT ( 'NONE', #15 ) ;
#55 = CC_DESIGN_PERSON_AND_ORGANIZATION_ASSIGNMENT ( #61, #80, ( #9 ) ) ;
#56 = PLANE ( 'NONE',  #2 ) ;
#57 =( NAMED_UNIT ( * ) SI_UNIT ( $, .STERADIAN. ) SOLID_ANGLE_UNIT ( ) );
#58 = ADVANCED_FACE ( 'NONE', ( #45 ), #16, .T. ) ;
#59 = LINE ( 'NONE', #48, #11 ) ;
#60 = PRODUCT_RELATED_PRODUCT_CATEGORY ( 'detail', '', ( #131 ) ) ;
#61 = PERSON_AND_ORGANIZATION ( #73, #69 ) ;
#62 = VERTEX_POINT ( 'NONE', #133 ) ;
#63 = COORDINATED_UNIVERSAL_TIME_OFFSET ( 8, 0, .AHEAD. ) ;
#64 = ORIENTED_EDGE ( 'NONE', *, *, #115, .T. ) ;
#65 = EDGE_CURVE ( 'NONE', #54, #43, #59, .T. ) ;
#66 = CARTESIAN_POINT ( 'NONE',  ( -1.614212418857619014, 0.000000000000000000, 0.000000000000000000 ) ) ;
#67 = DESIGN_CONTEXT ( 'detailed design', #158, 'design' ) ;
#68 = CARTESIAN_POINT ( 'NONE',  ( -3.000000000000000000, 0.000000000000000000, 0.000000000000000000 ) ) ;
#69 = ORGANIZATION ( 'UNSPECIFIED', 'UNSPECIFIED', '' ) ;
#70 = DIRECTION ( 'NONE',  ( 0.000000000000000000, 0.000000000000000000, -1.000000000000000000 ) ) ;
#71 = CARTESIAN_POINT ( 'NONE',  ( -3.000000000000000000, 0.000000000000000000, 0.000000000000000000 ) ) ;
#72 = CC_DESIGN_DATE_AND_TIME_ASSIGNMENT ( #144, #139, ( #19 ) ) ;
#73 = PERSON ( 'UNSPECIFIED', 'UNSPECIFIED', 'UNSPECIFIED', ('UNSPECIFIED'), ('UNSPECIFIED'), ('UNSPECIFIED') ) ;
#74 = DATE_AND_TIME ( #95, #17 ) ;
#75 =( GEOMETRIC_REPRESENTATION_CONTEXT ( 3 ) GLOBAL_UNCERTAINTY_ASSIGNED_CONTEXT ( ( #149 ) ) GLOBAL_UNIT_ASSIGNED_CONTEXT ( ( #4, #117, #57 ) ) REPRESENTATION_CONTEXT ( 'NONE', 'WORKASPACE' ) );
#76 = CC_DESIGN_DATE_AND_TIME_ASSIGNMENT ( #97, #152, ( #23 ) ) ;
#77 = APPROVAL_ROLE ( '' ) ;
#78 = CIRCLE ( 'NONE', #159, 15.00000000000000000 ) ;
#79 = ORIENTED_EDGE ( 'NONE', *, *, #143, .F. ) ;
#80 = PERSON_AND_ORGANIZATION_ROLE ( 'design_supplier' ) ;
#81 = VERTEX_POINT ( 'NONE', #36 ) ;
#82 = CC_DESIGN_APPROVAL ( #1, ( #23 ) ) ;
#83 = DIRECTION ( 'NONE',  ( -1.000000000000000000, -0.000000000000000000, -0.000000000000000000 ) ) ;
#84 = ADVANCED_BREP_SHAPE_REPRESENTATION ( 'Q-QZWP-R4-25.4-488-M', ( #28, #146 ), #75 ) ;
#85 = ORIENTED_EDGE ( 'NONE', *, *, #137, .T. ) ;
#86 = ORIENTED_EDGE ( 'NONE', *, *, #151, .F. ) ;
#87 = DIRECTION ( 'NONE',  ( -1.000000000000000000, -0.000000000000000000, -0.000000000000000000 ) ) ;
#88 = CC_DESIGN_APPROVAL ( #41, ( #19 ) ) ;
#89 = FACE_OUTER_BOUND ( 'NONE', #96, .T. ) ;
#90 = DIRECTION ( 'NONE',  ( -0.000000000000000000, 0.000000000000000000, 1.000000000000000000 ) ) ;
#91 = APPROVAL_STATUS ( 'not_yet_approved' ) ;
#92 = COORDINATED_UNIVERSAL_TIME_OFFSET ( 8, 0, .AHEAD. ) ;
#93 = APPROVAL_ROLE ( '' ) ;
#94 = AXIS2_PLACEMENT_3D ( 'NONE', #66, #98, #21 ) ;
#95 = CALENDAR_DATE ( 2020, 23, 12 ) ;
#96 = EDGE_LOOP ( 'NONE', ( #53, #86 ) ) ;
#97 = DATE_AND_TIME ( #122, #10 ) ;
#98 = DIRECTION ( 'NONE',  ( -1.000000000000000000, -0.000000000000000000, -0.000000000000000000 ) ) ;
#99 = DIRECTION ( 'NONE',  ( 0.000000000000000000, 0.000000000000000000, 1.000000000000000000 ) ) ;
#100 = CARTESIAN_POINT ( 'NONE',  ( 3.000000000000000000, 0.000000000000000000, 0.000000000000000000 ) ) ;
#101 = AXIS2_PLACEMENT_3D ( 'NONE', #38, #87, #170 ) ;
#102 = LOCAL_TIME ( 9, 27, 48.00000000000000000, #92 ) ;
#103 = CARTESIAN_POINT ( 'NONE',  ( 3.000000000000000888, 12.69999999999999929, 0.000000000000000000 ) ) ;
#104 = CARTESIAN_POINT ( 'NONE',  ( 3.000000000000000000, 0.000000000000000000, 0.000000000000000000 ) ) ;
#105 = ADVANCED_FACE ( 'NONE', ( #6 ), #46, .T. ) ;
#106 = APPLICATION_CONTEXT ( 'configuration controlled 3d designs of mechanical parts and assemblies' ) ;
#107 = PERSON_AND_ORGANIZATION ( #73, #69 ) ;
#108 = DATE_AND_TIME ( #134, #34 ) ;
#109 = APPROVAL_DATE_TIME ( #108, #172 ) ;
#110 = LOCAL_TIME ( 9, 27, 48.00000000000000000, #44 ) ;
#111 = APPLICATION_PROTOCOL_DEFINITION ( 'international standard', 'config_control_design', 1994, #106 ) ;
#112 = APPROVAL_PERSON_ORGANIZATION ( #22, #172, #77 ) ;
#113 = EDGE_LOOP ( 'NONE', ( #153, #127, #25, #128 ) ) ;
#114 = APPROVAL_STATUS ( 'not_yet_approved' ) ;
#115 = EDGE_CURVE ( 'NONE', #62, #54, #132, .T. ) ;
#116 = AXIS2_PLACEMENT_3D ( 'NONE', #104, #171, #99 ) ;
#117 =( NAMED_UNIT ( * ) PLANE_ANGLE_UNIT ( ) SI_UNIT ( $, .RADIAN. ) );
#118 = CIRCLE ( 'NONE', #30, 15.00000000000000000 ) ;
#119 = DIRECTION ( 'NONE',  ( -1.000000000000000000, 0.000000000000000000, -0.000000000000000000 ) ) ;
#120 = COORDINATED_UNIVERSAL_TIME_OFFSET ( 8, 0, .AHEAD. ) ;
#121 = VECTOR ( 'NONE', #83, 1000.000000000000000 ) ;
#122 = CALENDAR_DATE ( 2020, 23, 12 ) ;
#123 = SHAPE_DEFINITION_REPRESENTATION ( #14, #84 ) ;
#124 = MECHANICAL_CONTEXT ( 'NONE', #106, 'mechanical' ) ;
#125 = CLOSED_SHELL ( 'NONE', ( #58, #130, #105, #169 ) ) ;
#126 = CARTESIAN_POINT ( 'NONE',  ( 0.000000000000000000, 0.000000000000000000, 0.000000000000000000 ) ) ;
#127 = ORIENTED_EDGE ( 'NONE', *, *, #151, .T. ) ;
#128 = ORIENTED_EDGE ( 'NONE', *, *, #137, .F. ) ;
#129 = DIRECTION ( 'NONE',  ( -1.000000000000000000, -0.000000000000000000, -0.000000000000000000 ) ) ;
#130 = ADVANCED_FACE ( 'NONE', ( #89 ), #20, .F. ) ;
#131 = PRODUCT ( 'Q-QZWP-R4-25.4-488-M', 'Q-QZWP-R4-25.4-488-M', '', ( #124 ) ) ;
#132 = CIRCLE ( 'NONE', #116, 15.00000000000000000 ) ;
#133 = CARTESIAN_POINT ( 'NONE',  ( 3.000000000000000000, 0.000000000000000000, 15.00000000000000000 ) ) ;
#134 = CALENDAR_DATE ( 2020, 23, 12 ) ;
#135 = CC_DESIGN_APPROVAL ( #172, ( #9 ) ) ;
#136 = DATE_AND_TIME ( #175, #110 ) ;
#137 = EDGE_CURVE ( 'NONE', #43, #81, #118, .T. ) ;
#138 = ORIENTED_EDGE ( 'NONE', *, *, #7, .F. ) ;
#139 = DATE_TIME_ROLE ( 'creation_date' ) ;
#140 = CARTESIAN_POINT ( 'NONE',  ( -3.000000000000000000, 1.836970198721029589E-15, -15.00000000000000000 ) ) ;
#141 = CC_DESIGN_PERSON_AND_ORGANIZATION_ASSIGNMENT ( #145, #8, ( #23 ) ) ;
#142 = CARTESIAN_POINT ( 'NONE',  ( -3.000000000000000888, 12.69999999999999929, 0.000000000000000000 ) ) ;
#143 = EDGE_CURVE ( 'NONE', #81, #43, #39, .T. ) ;
#144 = DATE_AND_TIME ( #49, #102 ) ;
#145 = PERSON_AND_ORGANIZATION ( #73, #69 ) ;
#146 = AXIS2_PLACEMENT_3D ( 'NONE', #126, #162, #173 ) ;
#147 = PERSON_AND_ORGANIZATION ( #73, #69 ) ;
#148 = EDGE_LOOP ( 'NONE', ( #29, #85 ) ) ;
#149 = UNCERTAINTY_MEASURE_WITH_UNIT (LENGTH_MEASURE( 1.000000000000000082E-05 ), #4, 'distance_accuracy_value', 'NONE');
#150 = CARTESIAN_POINT ( 'NONE',  ( -1.614212418857619014, 0.000000000000000000, 15.00000000000000000 ) ) ;
#151 = EDGE_CURVE ( 'NONE', #54, #62, #78, .T. ) ;
#152 = DATE_TIME_ROLE ( 'classification_date' ) ;
#153 = ORIENTED_EDGE ( 'NONE', *, *, #65, .F. ) ;
#154 = CC_DESIGN_PERSON_AND_ORGANIZATION_ASSIGNMENT ( #107, #40, ( #131 ) ) ;
#155 = DIRECTION ( 'NONE',  ( 0.000000000000000000, 0.000000000000000000, 1.000000000000000000 ) ) ;
#156 = DIRECTION ( 'NONE',  ( 0.000000000000000000, 0.000000000000000000, 1.000000000000000000 ) ) ;
#157 = CC_DESIGN_SECURITY_CLASSIFICATION ( #23, ( #9 ) ) ;
#158 = APPLICATION_CONTEXT ( 'configuration controlled 3d designs of mechanical parts and assemblies' ) ;
#159 = AXIS2_PLACEMENT_3D ( 'NONE', #100, #47, #156 ) ;
#160 = AXIS2_PLACEMENT_3D ( 'NONE', #68, #129, #33 ) ;
#161 = PERSON_AND_ORGANIZATION_ROLE ( 'creator' ) ;
#162 = DIRECTION ( 'NONE',  ( 0.000000000000000000, 0.000000000000000000, 1.000000000000000000 ) ) ;
#163 = CC_DESIGN_PERSON_AND_ORGANIZATION_ASSIGNMENT ( #27, #161, ( #9 ) ) ;
#164 = APPLICATION_PROTOCOL_DEFINITION ( 'international standard', 'config_control_design', 1994, #158 ) ;
#165 = AXIS2_PLACEMENT_3D ( 'NONE', #103, #119, #90 ) ;
#166 = PERSON_AND_ORGANIZATION ( #73, #69 ) ;
#167 = EDGE_LOOP ( 'NONE', ( #64, #51, #79, #138 ) ) ;
#168 = APPROVAL_ROLE ( '' ) ;
#169 = ADVANCED_FACE ( 'NONE', ( #3 ), #56, .F. ) ;
#170 = DIRECTION ( 'NONE',  ( 0.000000000000000000, 0.000000000000000000, 1.000000000000000000 ) ) ;
#171 = DIRECTION ( 'NONE',  ( -1.000000000000000000, -0.000000000000000000, -0.000000000000000000 ) ) ;
#172 = APPROVAL ( #42, 'UNSPECIFIED' ) ;
#173 = DIRECTION ( 'NONE',  ( 1.000000000000000000, 0.000000000000000000, 0.000000000000000000 ) ) ;
#174 = APPROVAL_PERSON_ORGANIZATION ( #166, #41, #93 ) ;
#175 = CALENDAR_DATE ( 2020, 23, 12 ) ;
ENDSEC;
END-ISO-10303-21;
